Guitar Duniya

Friday, 30 August 2019

Harsh Kumar

Tera Ban Jaunga Guitar Tabs And Chords | Kabir Singh | Guitar Duniya

Tera Ban Jaunga Guitar Tabs And Chords | Kabir Singh | Guitar Duniya

Guitar duniya

Guitar Duniya presenting Tabs along with its Chords of one of the Most Beautiful song Tera Ban Jaunga From the Movie Kabir Singh sang by Tulsi Kumar, Akhil Sachdeva


Song Name : Tera Ban Jaunga
Artists: Tulsi Kumar, Akhil Sachdeva
Movie: Kabir Singh
Released: 2019
Music On - T Series



Plot Of The Movie:-

Kabir Rajdheer Singh is a house surgeon at Delhi Institute of Medical Sciences in New Delhi, India. Despite being a brilliant student, he has severe anger management problems that earn the wrath of the dean of the college. Kabir's aggressive nature also earns him a reputation among his juniors as a college bully. After having a brawl alongside his friend Kamal against members of the opposing team who made fun of them during an inter-college football match, the dean asks Kabir to either apologise or leave the college. Kabir initially chooses the latter but stays back after meeting and falling in love with first-year student Preeti Sikka.

Kabir and his friend Shiva enter a third-year classroom and announce that Kabir is in love with Preeti and asserts that she is exclusive to him. Initially afraid, Preeti starts adjusting herself to Kabir's overbearing attitude. She eventually reciprocates his feelings and they develop an intimate relationship. Kabir graduates with an MBBS degree and leaves for Mussoorie to pursue a Master's degree in orthopedic surgery. Over the course of three years both came back to Mumbai to their respective homes but till then Kabir's and Preeti's relationship becomes stronger. Months later, Kabir visits Preeti's house in Mumbai, where her father, Harpal, sees them kissing and throws Kabir out.

Harpal opposes Preeti and Kabir's relationship since he dislikes Kabir's personality. Kabir demands that Preeti must make a decision within six hours otherwise he will end their relationship. By the time she manages to visit Kabir's house, but he is drunk, injects morphine into himself, and becomes unconscious for two days. Preeti is then forcibly married to another man named Jatinder from her caste. Kabir learns about the marriage from Shiva and goes to her house in protest. He is assaulted and gets arrested for making a scene. Kabir's father, Rajdheer, ostracises him from the family home for damaging his reputation.

With Shiva's help, Kabir finds a rented apartment and joins a private hospital as a surgeon. To cope with his emotions, he starts taking drugs, attempts one-night stands, buys a pet dog and names it after Preeti and drinks alcohol; all of which are unsuccessful. Within months, he becomes a successful surgeon and a high-functioning alcoholic who is feared by the hospital's staff members, one of the reasons being his high surgery count. Kabir's self-destructing behaviour and refusal to move on worries Shiva and Kamal. He persuades one of his patients, Jia Sharma, a leading film star, to have a no-strings relationship with him, which he ends when she falls in love with him.

On a day off, Kabir unwillingly agrees to perform a life-saving surgery and collapses with dehydration. The hospital staff examine his blood samples, which show traces of alcohol and cocaine. The hospital chief files a case against Kabir, who accepts the truth on the grounds of violating his professional ethics during an in-house court hearing, despite Shiva making arrangements to bail him out. Kabir's medical license is cancelled for five years and he is evicted from the flat. The next morning, Shiva manages to reach Kabir to convey his grandmother Sadhna Kaur's death; he meets his father, and they reconcile. Kabir gives up his self-destructive habits soon after.

While leaving for a vacation, Kabir sees a pregnant Preeti sitting in a park. Convinced that she is unhappy with her marriage, Kabir meets her after returning from his vacation. Preeti reveals that she left her husband days after their marriage and continued to work in a clinic. She tells Kabir that he is the child's father, and they reunite. The pair marries, and Harpal apologises for misunderstanding their love for each other.

Guitar Tabs Start Here:-

\=Slide Forward
/=Slide Back
h=Hmmer
p=pull off
b=bend

E|--------------------------------
B|--------7--4--------------7--4--
G|--4--6--------6--4--4--6--------
D|--------------------------------
A|--------------------------------
E|--------------------------------


E|-----------------------------
B|--------7--4--9--7---7\9--7--
G|--4--6-----------------------
D|-----------------------------
A|-----------------------------
E|-----------------------------

E|-----------------------------
B|-----------7--4---4hp5--------
G|--4--6--6--------------6--4--
D|-----------------------------
A|-----------------------------
E|-----------------------------

E|-----------------
B|-------------7--4--
G|--4--6--6--------
D|-----------------
A|-----------------
E|-----------------

E|-----------------------------
B|--------7--4--9--7---7\9--7--
G|--4--6-----------------------
D|-----------------------------
A|-----------------------------
E|-----------------------------


E|--7--6--9--7--7--6--6--------------------
B|---------------------------9--9--7--7\9--9--
G|-----------------------------------------
D|-----------------------------------------
A|-----------------------------------------
E|-----------------------------------------

E|--7--6--9--7--7--6--6---------------------
B|-----------------------------9--9--7--7--9--9--
G|-----------------------------------------
D|-----------------------------------------
A|-----------------------------------------
E|-----------------------------------------


E|--7--6--9--7--7--6--6--------------7-----------
B|----------------------------9--9--7-----9--9-----
G|--------------------------------------------
D|--------------------------------------------
A|--------------------------------------------
E|--------------------------------------------


E|--7--7--7--7-----------------
B|-----------------7--9--9/7--7--
G|-----------------------------
D|-----------------------------
A|-----------------------------
E|-----------------------------


E|--7--7--7--7--------------7-----
B|-----------------7--9--9------7--
G|-----------------------------
D|-----------------------------
A|-----------------------------
E|-----------------------------

You can also Check Out :- Give Me Some Sunshine Guitar Tabs


E|-------------------
B|-------------4-------
G|--4--6--6-----------------
D|--------------------------
A|--------------------------
E|--------------------------


E|-------------------
B|-------------4-------
G|--4--6--6-----------------
D|--------------------------
A|--------------------------
E|--------------------------


E|----------------9-----9-----
B|------------4-----7-----7--
G|--4--6--6-----------------
D|--------------------------
A|--------------------------
E|--------------------------



E|--4-----4--------------------------4-4-4--7-------
B|-----7-----7------4-----------------------------7--
G|------------------------6--4--6-----------------
D|-----------------------------------------
A|-----------------------------------------
E|-----------------------------------------

E|--4-----4-----4-----------------------
B|-----7-----7-----7------------4--4--4--
G|--------------------4--6---6-----------
D|--------------------------------------
A|--------------------------------------
E|--------------------------------------

E|--4-----4-----4-----------4--4--7--4-----
B|-----7-----7-----7-----------------------7--
G|--------------------4--6-----------------
D|-----------------------------------------
A|-----------------------------------------
E|-----------------------------------------

E|--7--7--6--9---9-----
B|---------------7-----7--
G|-----------------------
D|-----------------------
A|-----------------------
E|-----------------------



E|--7--6--9--7--7--6--6--------------------
B|---------------------------9--9--7--7\9--9--
G|-----------------------------------------
D|-----------------------------------------
A|-----------------------------------------
E|-----------------------------------------

E|--7--6--9--7--7--6--6-------------7--------
B|---------------------------9--9--7-----9--9--
G|-----------------------------------------
D|-----------------------------------------
A|-----------------------------------------
E|-----------------------------------------



E|--7--6--9--9--9--11--7------------7--------
B|----------------------------9--9--7-----9--9--
G|-----------------------------------------
D|-----------------------------------------
A|-----------------------------------------
E|-----------------------------------------

E|--7--7--7--7-----------------
B|----------------7--9--9/7--7--
G|-----------------------------
D|-----------------------------
A|-----------------------------
E|-----------------------------

E|--7--7--7--7-----------7-----
B|--------------7--9---9-----7--
G|-----------------------------
D|-----------------------------
A|-----------------------------
E|-----------------------------

Tabs Credit:- fxmusic.in

Guitar Chords Starts Here:-


Strumming Pattern : DU DU DU DU

(B)Meri raahein te(E)re tak hain
(A)(bm)Tujhpe hi toh me(E)ra haq hai
(B)Ishq mera (E)tu beshaq hai
(A)(bm)Tujhpe hi toh me(E)ra haq hai

Check This Also :-  Pehli Dafa Guitar Chords


Saath ch(B)hodunga na tere piche aau(E)nga
Chheen lu(A)(bm)nga ya Khuda se maang la(E)aunga
Tere n(B)aal taqdeeran likhwaun(E)ga main
Main tera ban ja(A)(bm)aunga (E)
(E)Main tera ban jaaunga (B)


Sonh t(B)eri main kasam yehi kh(E)aunga
Kitte wa(A)(bm)adeya nu main nib(E)haunga
Tujhe h(B)ar waari apna banau(E)nga
Main tera ban jaa(A)(bm)unga (E)
Main tera ban jaa(B)unga

INSTRUMENTAL
A bm E B E x2
B E B E x2


(B)Lakhaan ton juda main hui t(A)(bm)eri khaatir
(B)Tu hi manzil dil tera (A)9(bm)musaafir (B)

(B)Lakhaan ton juda main hoya t(A)(bm)eri khaatir
(B)Tu hi manzil main te(A)(bm)ra musaafir
(B)Rab nu bhula betha t(A)(bm)ere karke
Main (E)ho gaya kaaf(B)ir


Tere li(B)ye main jahaan se takra(E)unga
Sab ku(A)(bm)ch khoke tujhko hi p(E)aaunga
Dil ba(B)nke main dil dhadkau(E)nga
Main tera ban jaa(A)(bm)unga (E)
Main tera ban jaa(B)unga


Sonh t(B)eri main kasam yehi kh(E)aunga
Kitte wa(A)(bm)adeya nu main nib(E)haunga
Tujhe h(B)ar waari apna banau(E)nga
Main tera ban jaa(A)(bm)unga (E)
Main tera ban jaa(B)unga


(B)Meri raahein te(E)re tak hain
(B)Tujhpe hi toh me(A)(bm)ra haq hai
(E)Ishq mera (A)(bm)tu beshaq hai
(B)Tujhpe hi toh me(E)ra haq hai(B)

 

Do You Know :- The design and dimensions of the modern guitar were established by Spanish guitarist Antonio Torres Jurado.
If you like our website then please share it with friends and family. Your like and share is our Motivation. Keep Supporting Us.
For more Guitar Tabs & Chords Visit:
- Guitar Duniya
Read More

Wednesday, 21 August 2019

Harsh Kumar

Give Me Some Sunshine Guitar Tabs | 3 Idiot | Guitar Duniya

Give Me Some Sunshine Guitar Tabs | 3 Idiot | Guitar Duniya

Guitar duniya

Guitar Duniya presenting Tabs  of one of the Most Beautiful song Give Me Some Sunshine From the Movie 3 Idiots sang by Sharman Joshi, Suraj Jagan.


Song Name : Give Me Some Sunshine
Singer Name : Sharman Joshi, Suraj Jagan
Lyricist - Swanand Kirkire
Music Director - Shantanu Moitra
Artist - Aamir Khan, Kareena Kapoor, R. Madhavan, Sharman Joshi
Film - 3 Idiots
Music On - T Series


About The Movie :- 
Farhan and Raju are called at ICE by Chatur on "Sept.5" . Then Farhan tells the story of Rancho in flashbacks of 10 years ago. Farhan Qureshi (R. Madhavan) and Raju Rastogi (Sharman Joshi) begin their college year in the prestigious Imperial College of Engineering (ICE) in Delhi. They are joined by Ranchoddas Chanchad (Aamir Khan), nicknamed "Rancho", as their roommate. While Farhan chose to pursue engineering over his passion for photography to appease his father, Raju has taken the course in an attempt to end his family's poverty. Rancho, on the other hand, is genuinely interested in science and engineering. He believes in hands-on learning and tends to give unorthodox answers in class, resulting in him coming into conflict with the professors, particularly the institution's director, Viru Sahastrabuddhe (Boman Irani), whom the ICE community nicknames "Virus". Virus's traditional and strict philosophies on education contrast sharply with Rancho's carefree love of learning. Meanwhile, Chatur (Omi Vaidya), nicknamed “Silencer", is an arrogant Ugandan Tamil student with little knowledge of Hindi, who is obsessed with topping the exams.

Sometime later, the trio finds that a student named Joy Lobo (Ali Fazal) committed suicide by hanging himself; his suicide was caused by depression after Virus informs Joy's father that he'll be unable to graduate due to the delay in his submission of an assignment. Joy had taken longer as he wanted to perfect his breakthrough drone design of a quad-copter. Rancho criticizes Virus' method of teaching and tries to show him how much pressure engineers face when they study, angering him further. Rancho visits his friends' families and later the trio then gatecrash a wedding to eat good food. They meet and befriend Pia (Kareena Kapoor), who turns out to be Virus' daughter and a residency student at the city's hospital. When Virus spots the trio, he summons Farhan and Raju on the next working day and threatens them of consequences of being friends with Rancho by comparing their family's income. He tells them that Rancho comes from a very rich family and does not need to worry about getting good grades and making a career. Affected, Raju moves out to Chatur's room. During the Teachers Day celebration, Chatur is humiliated when he delivers a Hindi speech modified by Rancho and as a result, he bets Rancho that ten years later they would see who is more successful. Sometime later, Rancho saves Raju's dying father with the help of Pia. Raju reconciles with his friends while Pia falls in love with Rancho.

One night during their senior year, the three friends drunkenly break into the Sahastrabuddhe residence so that Rancho can propose to Pia. As the trio escape, Virus recognizes Raju and threatens to expel him unless he writes a letter implicating Rancho for the break-in. Unwilling to betray Rancho or disappoint his family, Raju unsuccessfully attempts suicide and ends up in a coma. With intensive care and support from his friends, Raju recovers just in time for a corporate job interview. Meanwhile, Rancho and Pia post Farhan's letter to his favourite photographer Andre Istvan, who offers him a position as an assistant. After advice from Rancho, he communicates his dream to his father, who though reluctant at first, gives his blessings for the sake of his son's happiness. Raju also succeeds in getting a corporate job.

Infuriated by Rancho's influence, Virus sets a difficult final exam to fail Raju to which Pia tries to help the trio by revealing to them the location of the exam paper; unfortunately, Virus finds out and expels them. Pia confronts Virus about her brother who also committed suicide because he couldn't meet Virus' expectation of clearing the engineering exam. That same night, Virus' pregnant elder daughter Mona goes into labour during a heavy storm that cuts off all traffic and electricity. Rancho and the other students use their engineering knowledge to quickly modify a vacuum cleaner into a ventouse and deliver the baby with the help of Pia over a video call. A grateful Virus finally acknowledges Rancho as an extraordinary student and revokes their expulsion. On graduation day, Rancho suddenly disappears shortly after the ceremony ends.

Five years later, Farhan is a successful wildlife photographer while Raju is married and settled with his family in a comfortable lifestyle with a corporate job and Chatur is the vice president of a reputable corporation in the United States; neither the three of them have heard from Rancho since graduation. Arriving at Shimla, where Rancho was spotted in the background of a snapshot, they meet a man who turns out to be the real Ranchoddas Chanchad (Javed Jaffrey). From him, they learn that the Rancho they knew was actually "Chhote", an orphaned servant to the Chanchad family. Ranchoddas' father arranged for Chhote to attend ICE in his son's name so that his son could take credit for the degree. Ranchoddas provides Chhote's address in Ladakh, where he is a schoolteacher. On the way, they pass Manali where they rescue and prevent Pia from marrying her materialistic fiancee Suhas. Chatur, meanwhile, is in a hurry to crack a business deal with world-renowned scientist and businessman with 400 patents to his name, Phunsukh Wangdu.

Upon arrival in Ladakh, the four head to the village school and witness the young students' inventions that resemble Rancho's college projects. The four happily reunite with Rancho to which Pia and Rancho kiss, while Chatur insults and asks Rancho to sign a contract stating that he is the least successful person; Rancho does so without commenting. As Chatur walks away triumphantly, Rancho reveals himself to be Phunsukh Wangdu, to his friends' and Pia's surprise and delight. Realizing this, a horrified Chatur accepts his defeat and pleads him to sign his contract while Rancho and his friends run away laughing.

\=Slide Forward
/=Slide Back
h=Hmmer
p=pull off
b=bend


Saari Umrr Hum Mar Mar Ke Ji Liye
E|--------------------------------------------------------------
B|--------------------------------------------------------------
G|---7/9--9-----7--5---5/7-----5--7---7/9--9-----7--5---5/7-----
D|--------------------------------------------------------------
A|--------------------------------------------------------------
E|--------------------------------------------------------------

Ik Pal Toh Abb Hamein Jine Do, Jine Do
E|-----------------------------------------------------------------
B|-----------------------------------------------------------------
G|--5--7---7/9--9-----7--5---5/7---5\2--2-----5-----5--2---5/7-----
D|-----------------------------------------------------------------
A|-----------------------------------------------------------------
E|-----------------------------------------------------------------

Saari Umrr Hum Mar Mar Ke Ji Liye
E|-----------------------------------------------------------
B|------------------8-----------------------------------------
G|---7/9--9-----9-----7-----5--7---7/9--9------9/12-9--7-----
D|-----------------------------------------------------------
A|-----------------------------------------------------------
E|-----------------------------------------------------------

Ik Pal Toh Abb Hamein Jine Do, Jine Do
E|-----------------------------------------------------------------
B|-----------------------------------------------------------------
G|--5--7---7/9--9-----7--5---5/7---5\2--2-----5-----5--2---5/7-----
D|-----------------------------------------------------------------
A|-----------------------------------------------------------------
E|-----------------------------------------------------------------

Naa Na Na Naa
E|--------------------------------------------
B|---6/8--8--5--6-----5--6---6/8--8--5--6-----
G|--------------------------------------------
D|--------------------------------------------
A|--------------------------------------------
E|--------------------------------------------

Na Na Naa Na Na Naa
E|--------------------------------8--8--7---8/10-8--10----
B|---6/8--8--5--6-----6--8--8--------------------------
G|-----------------------------------------------------
D|-----------------------------------------------------
A|-----------------------------------------------------
E|-----------------------------------------------------

You Can Also Check Out :-  Mehndi Pyar Wali Hatho Pe Lagaogi

Give Me Some Sunshine, Give Me Some Rain
E|--10/12-12-10\8--10-10----8--10-10/12-12-10\8--10----
B|-----------------------------------------------------
G|-----------------------------------------------------
D|-----------------------------------------------------
A|-----------------------------------------------------
E|-----------------------------------------------------

Give Me Another Chance I Wanna Grow Up Once Again
E|--10/12-12-12-10-10\8--8--8--8--------8--8------8/10----10/12-------
B|--------------------------------------10-10-------10------------------13----
G|--------------------------------------------------------------------
D|--------------------------------------------------------------------
A|--------------------------------------------------------------------
E|--------------------------------------------------------------------



Do You Know :- The world’s smallest guitar was made at Cornell University in New York. It is 10 micrometers long (1 Micrometer = 10-6  Metre) with strings 50 nanometers (100 atoms) wide.

If you like our website then please share it with your friends. Your like and share will be our motivation. Keep Supporting us.

For more Guitar Tabs & Chords visit :- Guitar Duniya

Read More
Harsh Kumar

Mehndi Pyar Wali Hatho Pe Lagaogi | Dil Tod Ke | Tik-Tok Viral Song Guitar Tabs | Guitar Duniya

Mehndi Pyar Wali Hatho Pe Lagaogi | Dil Tod Ke | Tik-Tok Viral Song Guitar Tabs | Guitar Duniya


Guitar duniya

Guitar Duniya presenting Tabs  of one of the most wonderfull and most Viral  Song on TikTok 'Mehndi Pyar Wali Hatho Pe Lagaogi | Dil Tod Ke'  sang by Manan Bhardwaj & Sathak.

Song Name : Mehndi Pyar Wali Hatho Pe Lagaogi | Dil Tod Ke ( New Version )
Singer Name : Manan Bhardwaj & Sathak
Music Comp. : Manan
Lyricist : Unknown
Music Label : The Manan Bhardwaj


About The Song :-

'Mehndi Pyar Wali Hatho Pe Lagaogi' This song is one of the most viral songs on Social Media like:- Tik-Tok.

Original Version of this Song is  O Dil Tod Ke Hasti Ho Mera from the movie Bewafa Sanam which was released on 1995 and this song is sung by Udit Narayan.

This Movie is about that Sundar and Sheetal love each other and hope to get married soon. His mother approves of this match, Sundar makes his living by playing cricket and has become a very popular cricketer and this has brought about many enemies in his life. Among them are Gautam, who conspires with Sheetal to bring about the destruction of Sundar, to which Sheetal agrees because Gautam has Sheetal's mother captive and threatens to kill her if Sheetal does not agree to all his schemes and they send goons after him and after trashing the goons, he lands himself in jail and here is where he will find out that Sheetal is not what she claims to be. Frustrated at this, on Sheetal and Gautam's wedding, Sundar picks up a pistol and shoots Sheetal in public and is charged for this crime, a charge that carries the death sentence. Later in the movie, a journalist tries to help him and finds out everything that happened. It is revealed that the actual murderer was Gautam. Once Sundar realises that Sheetal was forced to do everything and she actually loved him, he requests the authority to let him visit Sheetal's grave one last time before he is hanged for his crime and they fulfill his request. Sundar kisses the grave and the police come with a letter saying that Sundar is free. Everyone becomes happy and they call Sundar, but he dies kissing the grave of his lover.


\=Slide Forward
/=Slide Back
h=Hmmer
p=pull off
b=bend


INTRO
E|--------------------
B|------------13hp14-------
G|--15-15-------------15-13-
D|--------------------
A|--------------------
E|--------------------


E|--------------------
B|------------13hp14-------
G|--15-15-------------15-13-
D|--------------------
A|--------------------
E|--------------------



E|--------------------
B|------------13hp14-------
G|--15-15-------------15-13-
D|--------------------
A|--------------------
E|--------------------


(EASY VERSION OF INTRO)

E|-----------8hp9--------
B|--11-11----------11-9--
G|--------------------
D|--------------------
A|--------------------
E|--------------------


Song Starts here:-

Ho Mehandi Pyaar Wali Haathon Pe Lagaogi

E|--------------------------------------------
B|--------4---4--6--6--6---4--6-----4--4--6--6-
G|--\6--6----------------------------6---------
D|--------------------------------------------
A|--------------------------------------------
E|--------------------------------------------

Ghar Mere Baad Gair Ka Basaogi

E|--------------------
B|--6--4--------------
G|--------6--5--5--5----5--6--8--6--5hp6-------
D|----------------------------------------------8--
A|--------------------
E|--------------------

Ho Mehandi Pyaar Wali Haathon Pe Lagaogi

E|--------------------------------------------
B|--------4---4--6--6--6---4--6-----4--4--6--6-
G|--\6--6----------------------------6---------
D|--------------------------------------------
A|--------------------------------------------
E|--------------------------------------------

You Can Also Check Out :- Tujhe Kitna Chahne Lage Guitar Tabs 


Ghar Mere Baad Gair Ka Basaogi

E|--------------------
B|--6--4--------------
G|--------6--5--5--5----5--6--8--6--5hp6-------
D|----------------------------------------------8--
A|--------------------
E|--------------------

Ho Mujhe Marne Se

E|-----------------------
B|-----------------------
G|--6--5-----------------
D|--------6--8--8--8--8--
A|-----------------------
E|-----------------------

Ho Mujhe Marne Se

E|-----------------------
B|-----------------------
G|--6--5-----------------
D|--------6--8--8--8--8--
A|-----------------------
E|-----------------------

Ho Mujhe Marne Se

E|-----------------------
B|-----------------------
G|--6--5-----------------
D|--------6--8--8--8--8--
A|-----------------------
E|-----------------------

Pahle Hi Yakeen Tha

E|--------------------
B|--------------------
G|-----5-----------5--
D|--8-----8--6--8-----
A|--------------------
E|--------------------

Ye Kaam Mere Baad Karogi

E|----------------------------------------
B|--------------------6-------------------
G|--5--5--5--6--8-------8--6--5-----------
D|-------------------------------8--8--8--
A|----------------------------------------
E|----------------------------------------

Wo Dil Tod Ke Hasti Ho Mera

E|-------------------------------------------
B|-------------------------------------------
G|--6--5----------------------5-----------5--
D|--------6--8--8--8--8----8-----8--6--8-----
A|-------------------------------------------
E|-------------------------------------------

Wafayein Meri Yaad Karogi

E|----------------------------------------
B|--------------------6-------------------
G|--5--5--5--6--8-------8--6--5-----------
D|-------------------------------8--8--8--
A|----------------------------------------
E|----------------------------------------



Do You Know :- The oldest guitars came from Persia (modern day Iran), about 3,500 years ago, and were called “Tanbur”.

If you like our website then please share it with your friends. Your like and share will be our motivation. Keep Supporting us.

For more guitar tabs & chords visit :- Guitar Duniya

Read More
Harsh Kumar

Tujhe Kitna Chahne Lage Guitar Tabs | Guitar Duniya | Arijit Singh | Kabir Singh

Guitar Duniya

Guitar Duniya presenting Tabs  of one of the most wonderfull Song Tujhe Kitna Chahne Lage From the MovieKabir Singh sung by Arijit Singh.

Tujhe Kitna Chahne Lage Guitar Tabs
Artist: Arijit Singh
Movie: Kabir Singh
Released: 2019

About The Movie :-

Kabir SinghKabir Singh is a 2019 Indian Hindi-language romantic drama film written and directed by Sandeep Vanga. It is a remake of his own Telugu film Arjun Reddy (2017). Jointly produced by Cine1 Studios and T-Series, the film stars Shahid Kapoor and Kiara Advani.

About The Song :- 

"Tuje Kitna Chahne Lage" is a Hindi song from movie Kabir Singh starring Shahid Kapoor and Kiara Advani, sung by Arijit Singh on music composition and lyrics of Mithoon.Another version of the song titled 'Tujhe Kitna Chahein Aur ' sung by Jubin Nautiyal used outside the film.
\=Slide Forward

/=Slide Back
h=Hmmer
p=pull off
b=bend



Dil ka dariya beh hi gaya
E|-----------------------------------------------
B|-----5-----4-----------------------------------
G|--------------6--4---6/8------3/4--6--4--4-----

Ishq ibadat ban hi gaya
E|-----------------------------------------------
B|---------------------------------4-----------
G|---6/11-11-11-11\4--4--4------4/6-----6--6-----

Khud ko mujhe tu sonp de
E|--------------------------------------------------
B|-----5-----4--------------------------------------
G|--------------6--4---6/8------3/4--6--4-----------
D|----------------------------------------------6/9-----

Meri zaroorat tu ban gaya
E|-----------------------------------------------------------------------
B|---------------------------------4-----------------------------------
G|---6/11-11-11-11\4--4--4------4/6-----6--6--4---4h-6p4---3h-4p3--1-----

Baat dil ki nazron ne ki
E|--------------------------------------------
B|--4--5---7/9--9------9/11-11----9--7--7-----
G|--------------------------------------------

You Can Also Check Out :-  Aankhon Mein Teri Guitar Tabs

Sach keh raha teri kasam
E|-----------------------------------------------------------------------
B|---5/7--5--4--2---4/5------7/9--7--5--4--4-----4---4h-5p4--4-----------
G|------------------------------------------------------------------------6--6-----

Tere bin na lenge ik bhi dam
E|--------------------------------------------------------------
B|--------------------------------------------------------------
G|-----4--6---6/8---6\4--4--6---6/9-----8--6--6------6/8--6-----

Tujhe kitna chahne lage hum
E|-----------------------------------------------
B|-----------------------------------------------
G|--4--6---6/8---6\4--4--6------6/9--6--4--4-----

Tere saath ho jayenge khatam
E|-----------------------------------------------------------------------------
B|-----------------------------------------------------------------------------
G|-----4--6---6/8---6\4--4--6---6/9-----8--6--6------8---6h-8p6-------
D|--------------------------------------------------------------------------9--8


Some Interest Fact About Guitar :-


1) Acoustic guitars have a variety of parts including the body, the waist, sound hole, bridge, frets, strings, neck, fretboard, tuning pegs, and the saddle.

2) The electric guitar has many of the same parts as the acoustic guitar and a few more including the headstock, machine heads, nuts, neck, frets, fretboard, pickups, control dials, pick up switch, body, and the bridge.

3) Guitar strings are made of either steel or nylon.

4) Antonio de Torres Jurado is considered to be the father of the modern guitar known today as the classical acoustic.

5) In the early 1900s the guitar became the world's most popular instrument.

6) Classical guitars are commonly the main instrument in several genres of music including country, blues, soul, folk, jazz, mariachi, and flamenco.

7) The electric guitar was invented in the 1930s once it was discovered that the amplifier could change guitar tones.

8) Electric guitars can have either a solid, semi-solid, or hollow body as they do not require a chamber to produce sound and tones.

9) BB King is considered a pioneer of the electric guitar in rock music.

10) Classical guitars tend to have nylon strings; acoustic and folk guitars tend to have steel strings; electric guitars have steel strings.

11) The guitar is the second most commonly played instrument. The piano is the most popular.

12) Guitar types include acoustic, renaissance, baroque, classical, flat top, resonator, Dobro, twelve string, acoustic bass, electric (hollow body, semi-hollow, solid body), seven string and eight string electric, and electric bass.

13) Capos, which clip to the fretboard, are used to change the pitch.

14) The guitar pic (or plectrum) is commonly used when playing the electric guitar or acoustic guitars fitted with steel strings. Many classical guitar players only use their fingers. Pics are often made of plastic but some are also made of wood, bone, or even steel.

15) Most guitar players use a strap to help support the instrument while playing.

16) There are different guitar designs including the V-shaped guitar and the double neck guitar.

17) The bass guitar is used to produce much lower tones than the regular electric is capable of creating.

18) Famous guitar companies include Fender, Gibson, Epiphone, Gretsch, Ibanez, and Martin.

19) Famous guitar players include BB King, Jimmy Page, David Gilmour, Stevie Ray Vaughan, Jimi Hendrix, Prince, Ed Sheeran, and Robert Johnson.

If you like our website then please share it with your friends. Your like and share will be our motivation. Keep Supporting us.

For more guitar tabs & chords visit :- Guitar Duniya

Read More

Sunday, 22 July 2018

Harsh Kumar

Aankhon Mein Teri Guitar Tabs | Om Shanti Om || Guitar Duniya


Aankhon Mein Teri Guitar Tabs | Om Shanti Om || KK


 Guitar Duniya

Guitar Duniya presenting Tabs of one of the most wonderfull Song Aankhon Mein Teri From the Movie Om Shanti Om sang by KK. 

Read More
Harsh Kumar

Afreen Afreen Guitar Tabs | Rahat Fateh Ali Khan | Guitar Duniya

Afreen Afreen Guitar Tabs | Rahat Fateh Ali Khan

Guitar Duniya


Guitar Duniya presenting Tabs of one of the most wonderfull Song Afreen Afreen(Coke Studio) sung by Rahat Fateh Ali Khan.


Artists: Rahat Fateh Ali Khan, Momina Mustehsan
Released: 2016
Lyricist(s): Javed Akhtar
Composer(s): Nusrat Fateh Ali Khan

To Play this Song You have to Tune your Guitar half Step Down and then Strings Became :-e - D#/Eb
B - A#/Bb
G - F#/Gb
D - C#/Db
A - G#/Ab
E - D#/Eb

You can use any tuner or pitcher to tune your guitar half step down or you can simply download this :- 

\=Slide Forward
/=Slide Back
h=Hmmer
p=pull off
b=bend


Aisa dekha nahi khoobsurat koi
D#|-----------------------------------------------------
Bb|-----------------------------------------------------
F#|--2--1------2h4--4--4-----1--2---4/6---4/9--7--6-----
C#|--------2--------------------------------------------

Jism jaise Ajanta ki murat koi
D#|--------------------------------------------------
Bb|--------------------------------------------------
F#|--2--1------2h4--4---4/6--1--2---4/6---4/9--7--6--
C#|--------2-----------------------------------------

Jism jaise nigahon pe jadoo koi
D#|-----------------------------------------------------
Bb|---------------------------------------3h-5p3--------
F#|-----2--1--2---2/6--6--6---6\4--4--4-----------6--6--
C#|-----------------------------------------------------

Jism nagma koi
jism khushboo koi
D#|-----------------------------------------------------
Bb|-----------------------------------------------------
F#|-----2--1--2---2/6--6--6-----6--4--4---4/9--7--6-----
C#|-----------------------------------------------------

Jism jaise mehakti hui chandni
D#|--------------------------------------------------
Bb|------------5/7--7--7-----7---------5h-7p5--5--5--
F#|--6--7--4--------------------7--7-----------------
C#|--------------------------------------------------

Jism jaise machalti hui ragini
D#|--------------------------------------------------------
Bb|---------------5/7--7--7---7/10-7------5h-7p5--5--5-----
F#|-----6--7--4-----------------------7--------------------
C#|--------------------------------------------------------

Jism jaise ke khilta hua ik chaman
D#|-----------4--5---4h-5p4-----------------------------
Bb|--5--5--5-----------------7---------5h-7p5--5--5-----
F#|-----------------------------7--7--------------------
C#|-----------------------------------------------------

Jism jaise ke suraj ki pehli kiran
D#|-----------4--5---5h-7p5-----------------------------
Bb|--5--5--5-----------------7---------5h-7p5--5--5-----
F#|-----------------------------7--7--------------------
C#|-----------------------------------------------------

Jism tarsha hua dilkasho dilnashin
D#|--------------------------------------------------
Bb|--5--5---5/10-10-10-10----12-9--10----10-10-10----
F#|--------------------------------------------------
C#|--------------------------------------------------

Sandli sandli
Marmari marmari
D#|--------------------------------------------------------------
Bb|--9--9--9---9/12-10-----------------5h-7p5--------------------
F#|--------------------11----7--7--7-----------6--4--------------
C#|--------------------------------------------------------------

Husan-e-jaana ki tareef mumkin nahi
D#|-----------------------------------------------------
Bb|--------------2--3---2h-3p2--------------------------
F#|--2--1---1h2-----------------4------1h2--2--2--2-----
C#|--------------------------------4--------------------

Husan-e-jaana ki tareef mumkin nahi
D#|-----------------------------------------------------------
Bb|-----------------------2--3---2h-3p3-----------------------
F#|---1h-2p1-----1---1h2-----------------4------1h2--2--2--2--
C#|-----------4-----------------------------4-----------------

Afreen afreen afreen afreen
D#|--------------------------------------------------
Bb|--2--3------3/5--5--5-----5--5---5h7-----5--5-----
F#|--------4-----------------------------7-----------
C#|--------------------------------------------------

Tu bhi dekhe agar toh kahe humnashin
D#|--------------------------------------------------
Bb|--5--5---5h7--7-----5-----5--5---5h7-----5--------
F#|-----------------7--------------------7-----6-----
C#|--------------------------------------------------

Afreen afreen afreen afreen
D#|-----------4--5---4h-5p4-----------------------------
Bb|--5--5--5-----------------7--5--3--5---3h-5p3--------
F#|-----------------------------------------------4-----

Husan-e-jaana ki tareef mumkin nahi
D#|-----------------------------------------------------------
Bb|-----------------------2--3---2h-3p2-----------------------
F#|---1h-2p1-----1---1h2-----------------4------1h2--2--2--2--
C#|-----------4-----------------------------4-----------------

If you like our website then please share it with your friends. Your like and share will be our motivation. Keep Supporting us.
For more guitar tabs & chords visit :- Guitar Duniya
Read More

Tuesday, 1 May 2018

Harsh Kumar

Pehli Dafa Guitar Chords With Strumming Pattern – Atif Aslam

Pehli Dafa Guitar Chords – Atif Aslam

Guitar Duniya

Guitar Duniya presenting Tabs Chords of one of the most wonderfull Song Pehli Dafa  sung by Atif Aslam.

Pehli Dafa Guitar Chords With Strumming Pattern
Artist: Atif Aslam
Released: 2017

Read More

Recent Post

Tera Ban Jaunga Guitar Tabs And Chords | Kabir Singh | Guitar Duniya

Tera Ban Jaunga Guitar Tabs And Chords | Kabir Singh | Guitar Duniya Guitar Duniya presenting Tabs along with its Chords of one of t...

Powered by Blogger.

Follow by Email

Contact Form

Name

Email *

Message *